本谱浏览量: 网评: (97票) 本谱选调: - -调 Caps:不夹


谱面调性: 新调: 打印该谱 打印该谱 收藏本谱加入收藏 网友修正: 修正吉他谱我来修正
             .:演唱:.
友情岁月 - 陈小春

Guitar Solo + Chord Arraged By Kenny Wong.

Note : I simplify this song only for 2 acoutic guitar, normally, this 
song 
need 2 acoustic and 2 electic ones.

Intro

E||------8-9----------------------------11^ 11-11-9-8--------
B||-------------------------------------------------------------
G||-----------10-10h11h10-10 ~~-----------------------------
D||--------------------------------------------------------------
A||--------------------------------------------------------------
E||--------------------------------------------------------------

--------8-9-----------------------------------------------------
-----------------------------------------------------------------
-------------10-10h11h10-10~~--8----------------------------
--------------------------------------11-10-8-7~~-------------
-----------------------------------------------------------------
-----------------------------------------------------------------

Note (acoutic guitar)
1st guitar play the chords with finger pick
2nd guitar play the chords normally.


Capo 1st

 Am       Dm         E7        Am
(消)失的光阴(散)在风里  (彷)佛想不起再(面)对

 C      F       Dm   Am
(流)浪日子(你)在伴随  (有)缘再(聚)

 Am                     Dm                          E7                      
        Am
(天)真的声音(己)在减退  (彼)此为着目标(相)距

 C                      F                               Dm                  
               Am
(凝)望夜空(往)日是谁  (领)会中心             疲(累)


**

  Am                             Dm                               E        
                     Am
来(忘)掉错对  来(怀)念过去  曾(共)渡患难日子( 总 )有乐趣

  F           C                                     Dm            
              E7
不(相)信会绝望  不(感)觉到踌躇  在(美)梦里竞争每( 日 
)拼命进取

  Am                                 Dm                               
E    
                                 Am
奔(波)的风雨里  不(羁)的醒与醉  ( 所 )有故事像己发生( 飘 
)泊岁月里

  F        C                Dm       E7             
    Am
风(吹)过己静下 将(心)意再还谁  让(眼)泪己带走(夜)          
憔(悴)

repeat 2 times
-------------------------------------------------------------------------------------------------------------------
--2222222222222222222222222222-44444444444444444444444444-66666666666666666666666666666666-4444444444-22222222-1111111------------------------------------------
-------------------------------------------------------------------------------------------------------------------
-------------------------------------------------------------------------------------------------------------------
-------------------------------------------------------------------------------------------------------------------
-------------------------------------------------------------------------------------------------------------------

   Am                      Dm                          E7                    
          Am
(天)真的声音(己)在减退  (彼)此为着目标(相)距

 C                      F                               Dm                  
               Am
(凝)望夜空(往)日是谁  (领)会中心             疲(累)


**

  Am                             Dm                               E        
                     Am
来(忘)掉错对  来(怀)念过去  曾(共)渡患难日子( 总 )有乐趣

  F           C                                     Dm            
              E7
不(相)信会绝望  不(感)觉到踌躇  在(美)梦里竞争每( 日 
)拼命进取

  Am                                 Dm                               
E    
                                 Am
奔(波)的风雨里  不(羁)的醒与醉  ( 所 )有故事像己发生( 飘 
)泊岁月里

  F        C                Dm       E7             
    Am
风(吹)过己静下 将(心)意再还谁  让(眼)泪己带走(夜)          
憔(悴)

While the first guitar playing solo, the 2nd play the chords.
                Am                         Dm                    E           
               Am
-----------------------------------------------------------------------------------------
----------6--------6-------7------7------6------6-------6------6-----------------------
--------------6-----6---------6----6--------5----5---------6----6----------------------
----------------8----8----------8---8---------7---7----------8---8---------------------
-----------------------------------------------------------------------------------------
-----------------------------------------------------------------------------------------
                 F                             E7            E               
  Am                                     Am...................
---------------------------------------------------------------6-66-6h9~~--8-6-8-6--------------------
----------------------------------------------------------6-66-------------------------------
----------6------6---------5--------5--------------6-66----------------------------------------
------------8-----8-----------7------7--------8-88--------------------------------------------------------
---------------9---9-------------8----8----------------------------------------------------------
-------------------------------------------------------------------------------------------------------

  Am                             Dm                               E        
                     Am
来(忘)掉错对  来(怀)念过去  曾(共)渡患难日子( 总 )有乐趣

  F           C                                     Dm            
              E7
不(相)信会绝望  不(感)


:::: 欢迎对本谱点评 ::::
打分: 1分 2分分 3分分分 4分分分分 5分分分分分


登录状态:    是否参与打分:  

赞一下
(已有1人投票)
踩一下
(已有0人投票)

作者说明


::相关下载::




查看全部点评


GuestGuest 打分:×1 沙发 | 回复
谢谢~分享

(2004-11-19 12:44:00)

GuestGuest 打分:×1 板凳 | 回复
好,

(2005-1-30 22:24:00)

GuestGuest 打分:×1 地板 | 回复
谢谢~好辛苦才找到~

(2005-2-13 19:03:00)

以下是最新评论
GuestGuest 打分:×1 [77楼] | 回复
Guest点赞了该谱

(2016-11-14 8:30:00)

JacklinJacklin 打分:×1 [54楼] | 回复
1

(2005-8-23 0:51:00)

GuestGuest 打分:×1 [10楼] | 回复
dgragg

(2005-3-28 9:08:00)

GuestGuest 打分:×1 [38楼] | 回复
h

(2005-6-17 12:12:00)

GuestGuest 打分:×1 [49楼] | 回复
不行

(2005-8-1 23:41:00)

GuestGuest 打分:×1 [51楼] | 回复
5456

(2005-8-3 22:40:00)

GuestGuest 打分:×1 [56楼] | 回复
lkj

(2005-9-2 16:33:00)